All The Small Things

Printer Friendly, PDF & Email

Interpret

Blink 182

Akkorde

Intro
Synth C
Guitar | G F |

e||-----------------------------------------------||
B||----------6666-5555----------------------------||
G||-55555555-5555-5555----------------------------||
D||-55555555-3333-3333-55555555-5-x-x-x-x-3-3-3---||
A||-33333333-----------55555555-5-x-x-x-x-3-3-3---||
E||--------------------33333333-3-x-x-x-x-1-1-1---||


Strophe
|| C | G | F | G ||

Bridge (je ein Abschlag)
| C | C | G | F |

Chorus:  (Say it ain't so...)

e||---8---8---8---8---8---8---8---8---8---8---8--||
h||----------------------------------------------||
G||-5---5---5---5---5---5---5---5---5---5---5----||

|| C | C | G | F ||

Interlude:
e||--------------------------------------------------||
B||--------------------------------------------------||
G||-55555555-10101010-9999-777777777-x-x-x-x-5-5-5---||
D||-XXXXXXXX-X-X-X-X--XXXX-XXXXXXXXX-x-x-x-x-5-5-5---||
A||-33333333-8-8-8-8--7777-555555555-x-x-x-x-3-3-3---||
E||--------------------------------------------------||

Solo
|| C | C | F | G ||

E||---------------------------------------------------------------||
B||---------------------------------------------------------------||
G||-5---5---5---5---5---5---5---5---5---5---5---5---4---4---4---4-||
D||---5---5---5---5---5---5---5---5---5---5---5---5---5---5---5---||
A||---------------------------------------------------------------||
E||---------------------------------------------------------------||

Outro
e|-------------------------------------------------------------------|
B|-------------------------------------------------------------------|
G|-----------------------------------5-~-----------------------------|
D|-X-X-3------X-X-3-------X-X-3------5-~-----------------------------|
A|-X-X-3------X-X-3-------X-X-3------3-~-----------------------------|
E|-X-X-1------X-X-1-------X-X-1--------------------------------------|

Musik Gruppe