Are You Gonna Go My Way

Printer Friendly, PDF & Email

Interpret

Lenny Kravitz

Akkorde

|---------------------------|------------------------x-3-|
|---------------------------|------------------------x-3-|
|-2b4==(2)r(2)p0------------|-2b4==(2)r(2)p0-------------|
|----------------2---0-2----|----------------2---0-2-----|
|---------------------------|----------------------------|
|------------------0------0-|------------------0---------|
|
|------------------------------------------|---------------------------------------|
|------------------------------------------|---------------------------------------|
|------14pb15r(14)-12----------12----------|-14b16==(14)r(14)p12-------------------|
|------------------------14----12-14--(12)-|---------------------14----12-14-----x-|
|---------------------------14-------------|------------------------14-------------|
|------------------------------------------|---------------------------------------|

##
||------------------------------------||-----------------------------------|
||------------------------------------||-----------------------------------|
||------17pb19r(17)p15----------------||-----------------------------------|
||---------------------17----15-17----||-x-17-x-15-x-14-(14)-x-15-x-17-x---|
||------------------------17----------||-----------------------------------|
||------------------------------------||-----------------------------------|
|
||------------------------------------||-----------------------------------|
||------------------------------------||-----------------------------------|
||-5b7==(5)r====(5)p=3----------------||-x--5-x--4-x--3--(3)-x--2-x--4-x---|
||----------------------5-----3--5----||------------------------2----------|
||------------------------------------||-----------------------------------|
||-------------------------3--------3-||-----------------------------------|

##
  Gtr I & II
|-------------------|------------------||
|-------------------|------------------||
|--7--7----6--------|------------------||
|--9--9----7--------|------------------||
|-------------------|------------------||
|-------------------|------------------||


Chorus
|--------------------------|--------------------------|
|-12-12--------------------|-12-12S15-12-(12)-(12)\---|
|-13-13-11-13-(13)-(13)\---|-13-13S16-13-(13)-(13)\---|
|-14-14-12-14-(14)-(14)\---|-14-14S17-14-(14)-(14)\---|
|--------------------------|--------------------------|
|--------------------------|--------------------------|
|
|--------------------------|--------------------------|
|--9--9--7--9--------------|--9--9-12--9--------------|
|--9--9--7--9--------------|--9--9-12--9--------------|
|--9--9--7--9--------------|--9--9-12--9--------------|
|--------------------------|--------------------------|
|--------------------------|--------------------------|

 Interlude & Solo
  Gtr I
|------7------7-|--------------------|
|-9--x-7--x-x-7-|---x-5-(5)-7-5-(5)/-|
|-9--x-7--x-x-7-|---x-6-(6)-7-6-(6)/-|
|-9--x-7--x-x-7-|---x-7-(7)-7-7-(7)/-|
|---------------|--------------------|
|---------------|--------------------|

Solo E Blues Scale 12. Bund

Musik Gruppe