Beat it

Printer Friendly, PDF & Email

Interpret

Michael Jackson

Noten Stimmung

Eb

Akkorde

​                                   ~~~~~           T  
e|----------------------------|----------------------------|
B|----------------------------|----------------------------|
G|-(2)b4==(2)-----(2)r(2)s7---|-(7)-7(14)-----(7)s9-9(14)--|
D|----------------------------|----------------------------|
A|----------------------------|----------------------------|
E|----------------------------|----------------------------|

              T        T                T              T
                       |------5------|  |------6-------|  
e|------------15p10h14-15p14p12p==10h14-15p14p12p10h14-15p|
B|--------------------------------------------------------|
G|-(9)s==14-----------------------------------------------|
D|--------------------------------------------------------|
A|--------------------------------------------------------|
E|--------------------------------------------------------|

                   T              T                        ~~~
    |---------7----------|  |---------7----------|   
e|-14p12p10-----------------------------------------------------------|
B|----------h14---15p14p12p10h14-15p14p==12p10-(10)h12h13p12----(12)s=|
G|--------------------------------------------------------------------|
D|--------------------------------------------------------------------|
A|--------------------------------------------------------------------|
E|--------------------------------------------------------------------|

                        |-----5-----|  |------6-------|   
e|------------------12h19p15p12----12-------------12----|
B|-19------12-15h19-------------19-12-19p15p12h15----19p|
G|------------------------------------------------------|
D|------------------------------------------------------|
A|------------------------------------------------------|
E|------------------------------------------------------|

    |---------7---------|   
e|----------12------------12-----------------------------------------------|
B|-15p12h15------19p15p12----12---------------------15b17==(15)r(15)p12h===|
G|------------------------------14b15==(14)r(14)p12------------------------|
D|-------------------------------------------------------------------------|
A|-------------------------------------------------------------------------|
E|-------------------------------------------------------------------------|

                                                               \2.5_______
       T           T  
e|----------------19s22--------------------------------------------------|
B|-15-19s22p15p12-------15p12--------------------------------------------|
G|-----------------------------14b15==(14)-(14)r(14)p12-0-(0)-(0)----(0)-|
D|-----------------------------------------------------------------------|
A|-----------------------------------------------------------------------|
E|-----------------------------------------------------------------------|

    /                             \1/  
e|------------------------------------------|-----------------------------------------------|
B|------------------------------------------|------3b5==(3)-(3)r(3)p0h3b5==(3)r(3)p0-3b5====|
G|-(0)-(0)---[9]b11==(9)r(9)p7h9-(9)p7-(7)--|-(7)\------------------------------------------|
D|------------------------------------------|-----------------------------------------------|
A|------------------------------------------|-----------------------------------------------|
E|------------------------------------------|-----------------------------------------------|
  

e|------------------------------------------------|-------------12--------------12-15b17==(15)r---12----|
B|=(3)rp0-3b5==(3)r(3)p0--------------------------|----------------15b17==(15)r-12-------------------12-|
G|-----------------------[2]b4==([2])--([2])r-(2)s|-16-----7s13-----------------------------------------|
D|------------------------------------------------|-----------------------------------------------------|
A|------------------------------------------------|-----------------------------------------------------|
E|------------------------------------------------|-----------------------------------------------------|


                        ~~~~~~~~~         T   
e|------------------------------------------------|
B|---------------------------------------15h18p13-|
G|-14b16==(14)r(14)p12-14---(14)-(14)\------------|
D|------------------------------------------------|
A|------------------------------------------------|
E|------------------------------------------------|

    T          T        T        T         T        T        T        T           T
    |------5------|  |------6-------|  |--------7---------|  |---------7----------|   
e|-15h18p12------------15h18p12-----------15h18p12----------15h18p12---------h13-17p==|
B|------------15h18p12----------15h18p12-----------15h18p12----------15p==12----------|
G|------------------------------------------------------------------------------------|
D|------------------------------------------------------------------------------------|
A|------------------------------------------------------------------------------------|
E|------------------------------------------------------------------------------------|

       T     T
    |3-|  |3-|   
e|-10-17p10-17p10s==8------0---------12----|
B|-------------------------0-15b17==(15)r--|
G|--------------------9s14-----------------|
D|-----------------------------------------|
A|-----------------------------------------|
E|-----------------------------------------|

    TP   TP   TP     TP   TP   TP   TP  TP      TP   
e|-12---14---15-----17-|-17---19---19--22b24==(22)-----|
B|---------------------|-------------------------------|
G|---------------------|-------------------------------|
D|---------------------|-------------------------------|
A|---------------------|-------------------------------|
E|---------------------|-------------------------------|


     TP     TP     ~~~~   
e|-(22)---(22)---(22)----------|-(22)r------------------|
B|-----------------------------|------------------------|
G|-----------------------------|---------19--(19)\------|
D|-----------------------------|-------x----------------|
A|-----------------------------|------------------------|
E|-----------------------------|------------------------|

Musik Gruppe