Bitch - Meredith Brooks

Printer Friendly, PDF & Email

Akkorde

Intro
|| A | /E D ||

 Strophe
|| A | /E D || 2x
| F#m | Hm | D | D |

 Refrain
| A | E | Hm | D |
 | A | E | F#m | D |

 Solo
| A | E | F#m | D |
 | A | E | Hm | D |

 Bridge
|| E | F#m | D | D ||

 E|--0------0---0-----0----0-----0--0---0--0-----0--0------0---0-----0---0----------------|
 B|--10/12--12--12-\--10---10-\--7--7---5--5--/--7--7---\--5---5--\--3---3----------------|
 G|---------------------------------------------------------------------------------------|
 D|---------------------------------------------------------------------------------------|
 A|---------------------------------------------------------------------------------------|
 E|---------------------------------------------------------------------------------------|

 E|--0------0---0-----0----0-----0--0---0--0----------------------------------------------|
 B|--10/12--12--12-\--10---10-\--7--7---5--5----------------------------------------------|
 G|---------------------------------------------------------------------------------------|
 D|---------------------------------------------------------------------------------------|
 A|---------------------------------------------------------------------------------------|
 E|---------------------------------------------------------------------------------------|

 E|---------------------------------------------------------------------------------------|
 B|-------------10------10--12b13r12---10h12p10------10----10-----------------------------|
 G|-----7-/-11------11---------------------------11--------9h11-9-------------------------|
 D|----------------------------------------------------------------9h11-9-\-7-----7-------|
 A|----------------------------------------------------------------------------9----------|
 E|---------------------------------------------------------------------------------------|

 

 

Musik Gruppe