Fallen

Printer Friendly, PDF & Email

Interpret

Volbeat

Noten Stimmung

D

Akkorde

Intro & Main Riff

   E                                A
D|---------------------------------------------------------------------------|
A|---------------------------------------------------------------------------|
F|---------------------------------------------------------------------------|
C|----------------------------------13p11-------11----11---13---14---13-11-13|
G|-9/11-----11-----11-----------11----0-----0-0-0-0-0-0--0-0--0-0--0-0--0--0-|
D|-0----0-0-0--0-0-0--0-0-0-0-0-0-0-0----------------------------------------|

Outro am Intro Ende
| A | G# F# |

Solo Anfang über E / A
D||-------------------------------------------------------------------------||
A||-------------------------------------------------------------------------||
F||-------------------------------------------------------------------------||
C||-------------------------------13p11-11-11-11-11-------------------------||
G||-9/11-11-11-11-11-11-11-11-11-------------------14-12-11-11--------------||
D||-------------------------------------------------------------------------||

D||-------------------------------------------------------------------------||
A||-------------------------------------------------------------------------||
F||-11h13-13-13-13-13-13-11-11----------------------------------------------||
C||----------------------------14-13-13-11h13p11-11-11-11-11-11-------------||
G||-------------------------------------------------------------14-12-11----||
D||-------------------------------------------------------------------------||

Refrain:
| E | E | H | H |
| C#m | H | A | A |

Solo (3:05): (Lead - Reverb) - über C#m / Emaj Skala
d|--------------------------------------------------------------------------------|
A|--------------------------------------------------------------------------------|
F|-9h11-11-11-11-11-11-9-9-9-9-9-9-9-9-9-9h11-11-11-11-11-11-9-9-9-9-9-11p9-------|
C|--------------------------------------------------------------------------11-11-|
G|--------------------------------------------------------------------------------|
D|--------------------------------------------------------------------------------|

d|-------------------------------------------------------------------|
A|-------------------------------------------------------------------|
F|-------------------------------------------------------------------|
C|-9h11-11-11-11-11-11-9-9--9--11-9-9-11p9-7----7-9--9\11-9-7h9-7----|
G|-------------------------------------------------------------------|
D|-------------------------------------------------------------------|

d|-----------------------------------------------------------------------------------|
A|-----------------------------------------------------------------------------------|
F|------9----9-11b-11-11-9h11p9---------9----9-11b-11-9h11p9---------9----9-11b-11-9-|
C|-9h11---11--------------------11-9h11---11-----------------11-9h11---11------------|
G|-----------------------------------------------------------------------------------|
D|-----------------------------------------------------------------------------------|

d|------------------------------------------------------------------|
A|------------------------------------------------------------------|
F|-11p9-11p9----------9----9-11-11-11\13-13-11-13-13h14-13-11-13p11-|
C|-----------11-9-11------------------------------------------------|
G|------------------------------------------------------------------|
D|------------------------------------------------------------------|

d|----------------------------------------|
A|----------------------------------------|
F|-11-9-11-9h11p9--------------------9----|
C|----------------11-9----9----------9----|
G|---------------------11---11p9-7-9-7----|
D|----------------------------------------|

Musik Gruppe