Handwritten

Printer Friendly, PDF & Email

Interpret

Gaslight Anthem

Akkorde

Im Original Halbton Tiefer
e|-----------|------------------|---|
B|----7------|------7-9-7-------|-9-|
G|-8---------|--6-8-------8-6-8-|---|
D|--------9--|------4-6-4-------|---|
A|-----------|--4-6-------6-4-6-|---|
E|-----------|------------------|---|

Intro
|| G#m | H | E | E || 2x
|| G#m | F# | E | E || 2x

Strophe
|| G#m | H | E | E || 2x
|| G#m | E | H | F# || 2x

e|----------------------------------|
B|------7-----7-----7-----7---------|
G|--6-6---6-6---6-6---6-6---6-8-6-8-|
D|----------------------------------|
A|----------------------------------|
E|----------------------------------|

PreChorus
| H | H | F# | F# |
| G#m | G#m | E | E |

e|-------|-------|-------|-------|-------|-------|-------|-------|
B|-12-14-|-16-14-|-17-16-|-14-12-|-19-17-|-16-14-|-12-12-|-12-12-|  
G|-------|-------|-------|-------|-------|-------|-------|-------|

Chorus
|| G#m | E | H | F# || 4x

Break
| G#m | % | % | % |
D||--------------||
A||---(6)/7-6-4--|| E||-4------------||

| E | F# | E | F# |
 

Musik Gruppe