How Far We've Come

Printer Friendly, PDF & Email

Interpret

Matchbox 20

Akkorde

Intro Mandoline
|--0--|--0--|--0--|--1--|
|--3--|--3--|--3--|--3--|
|-----|-----|-----|-----|
|-----|-----|-----|-----|

Strophe
|  C | C | G | G F | Am | Am | F | F |

E|--0--|--3--|--0--|--1--|
A|--3--|--3--|--3--|--3--|
D|-(2)-|-----|-----|-----|
G|-----|-----|-----|-----|

Chorus (Mandoline)
    2x                2x
E||--3--3--3-----0-||--3--3--3--3-1-0-||
A||-3--3--3--3/5---||-3--3--3---------||
D||----------------||-----------------||
G||----------------||-----------------||

|  Am | Am | F | F | C | C | G | G |

Solo Mandoline
    3x
E||--0-5-3---3-5-0-||---------------|
A||----------------||-7-5-7-8-7-5-7-|

Bridge

E|-0-0-0-0-0-0-0-0-||-0-3-3-3-3-3-3-3-|-3-0-0-0-0-0-0-0-||
A|-----------------||-----------------|-----------------||

E||---0-0-0-0-0-0-0-||---0---0-0---0---|---0---0-0---0---|
A||-5---------------||-5---5-----5---5-|-5---5-----5---5-|

Chorus

Outro
| C | G | Am | F |
| C | G | Am | F G | Am Hm | C |

Musik Gruppe