I Fought the Law

Printer Friendly, PDF & Email

Interpret

The Clash

Akkorde

Intro:
Chords:       D             D              G              A
Tab:    -----------------------------------------------------------|
        -----------------------------------------------------------|
        -(12)/14-14-14-(12)/14-14-14--(12)/14-14-14--(12)/14-14-14-|

Chords:       D             D         A   G   F#m  D
Tab:    ----------------------------------------------------------|
        ----------------------------------------------------------|
        -(12)/14-14-14-(12)/14-14-14--14--12--11------------------|
        -------------------------------------------12-------------|

Strophe
|| D | G D | D | G D | D | A D || 2x
| G | G | D | D |
| G | G | D | A D | D | A G F#m D |


Solo
   G                       G                       D          D
||----------------------|------------------------|----------|-----------------------||
||----------------------|------------------------|----------|--15-----17-/B(19)\17--||
||----------------------|------------------------|--14-16---|-----------------------|| 4x
||------------12s14L14--|--14s16L16----16s17L17--|----------|-----------------------||
||--12s14L14------------|------------------------|----------|-----------------------||
||----------------------|------------------------|----------|-----------------------||

--> Intro Riff

Musik Gruppe