I Was Made For Lovin You

Printer Friendly, PDF & Email

Interpret

Kiss

Akkorde

Intro & Main Riff
| Em | Am D |

E|--------------|--------------------------------------|
B|--------------|--------------------------------------|
G|--------------|--14-12--14-14-12-----7-5---9-9--7----|
D|--------------|--14-14--14-14-14-----7-7---9-9--7----|
A|--------------|----------------------------7-7--5----|
E|-0-0-0-0-0-0-0|--------------------------------------|

e|---------------------------------------------------------------------------------|
B|-3h5p3p0-------------------15b17r15p12-------------------------------------------|
G|---------4-2h4p2p0---0h2~---------------14b16r14p12-14-14b16r14p12---------------|
D|-------------------2------------------------------------------------14-12-12h14~-|
A|---------------------------------------------------------------------------------|
E|---------------------------------------------------------------------------------|

Strophe
| Em | G | H | Em |
| Em | G | H | Am |

Refrain
| Em | Am | Em | Am D |

Bridge
|| C | Cm7 | D D | D Em  D || 3x
| C | Cm7 | D  Am | H | H |

e||-5-|-7--|--------|-----------||    |-5-|-7--|
B||-5-|-5--|--------|-----------||    |-5-|-5--| D  Am H
G||-5-|-5--|-7----7-|-7--9----7-|| 3x |-5-|-5--|
D||-7-|----|-7----7-|-7--9----7-||    |-5-|----|
A||---|----|-5----5-|-5--7----5-||    |-3-|----|
E||---|----|--------|-----------||    |---|----|

Solo Part 1
e|-----------------------------------------------------------------------------|
B|-----------------------------------------------------------------------------|
G|-----------------------------------------------------------------------------|
D|---------------------------------9-9-...-9-9---------------------------------|
A|-9-9-9-9-10-10-10-10-12-12-12-12-------------9-9-9-9-10-10-10-10-12-12-12-12-|
E|-----------------------------------------------------------------------------|
   * * * *  *  *  *  *  *  *  *  * * * ... * * * * * *  *  *  *  *  *  *  *  *
   
Solo Part 2
e|---------------------------------------------------------------|
B|----------12---------------------------------------------------|
G|------12--12---14b-14-12-----------12/14/12--12--14b/14-12--12-|
D|------12-----------------14/12/14----------14-------------14---|
A|-/14-----------------------------------------------------------|
E|---------------------------------------------------------------|

e|----------------------------------------------------|
B|-15b~-15b~---15/12--12------------------15----------|
G|------------------14-----14/12--12-14b~~--~14-12----|
D|------------------------------14---------------14~--|
A|----------------------------------------------------|
E|----------------------------------------------------|

Musik Gruppe