I'll be there for you - Rembrands

Printer Friendly, PDF & Email

Akkorde

e|----H---P---------------|
b|---0-2-2-0--------------|
g|-----------2-0-0-2~~4-2-|
d|------------------------|
a|-0----------------------|
e|------------------------|

Strophe
| A | % | % | G |
| A | % | % | C#m |

----> 2. Teil Strophe
| G | Hm | A | % |
| G | D | E | % |

Refrain
|| A | D | E | E || 3x
| G | G |

nach 2. Strophe | A | A |

Bridge
| D | % | % | % |
| F#m | % | % | % |
| Hm |  % | Hm7/D |  % |
| G | D | E | D E |

Solo über 4x Refrain
(A Blues Scale)
-> 2. Teil Strophe


E|---------------------------------|----------------------------|-------------------|-------------------|
B|---------------------------------|----------------------------|-------------------|-------------------|
G|-4---6---6---6---6---6---6---6---|-6---6------------------6---|-6---4-------------|-----------2---4---|
D|---------------------------------|---------4---7--------------|-------------------|-------------------|
A|---------------------------------|----------------------------|-------------------|-------------------|
E|---------------------------------|----------------------------|-------------------|-------------------|


E|----------------------------|-------------------------|-0------------0------------|-0-----------0-----|
B|----------------------------|-------------------------|-----0------------0--------|-----0-----------0-|
G|-6--------------------------|-2-------6-------4-------|---------2------------1----|---------1---------|
D|-----------------2----------|-------------------------|---------------------------|-------------------|
A|----------------------------|-------------------------|---------------------------|-------------------|
E|----------------------------|-------------------------|---------------------------|-------------------|


E|---------------------------------|---------------------------|--------------------|------------------|
B|---------------------------------|---------------------------|--------------------|------------------|
G|---------------------------------|---------------------------|--------0---2---2---|-1---1------2---4-|
D|---------------------------------|---------------------------|--------------------|------------------|
A|-2---4---4---4---4---4---4---4---|-4---4-------0-----2---4---|--2-----------------|------------------|
E|---------------------------------|---------2-----------------|--------------------|------------------|


E|-----------------|--------------|-------------|-0--2---5------|
B|-----------------|----2---3-----|-0--2---3----|---------------|
G|-2-----------2---|--------------|-------------|---------------|
D|-------2---------|--------------|-------------|---------------|
A|-----------------|--------------|-------------|---------------|
E|-----------------|--------------|-------------|---------------|
 

Musik Gruppe