Jerk It Out

Printer Friendly, PDF & Email

Interpret

Caesars Palace

Akkorde

|-----11-----14----14------14-|-----9------7----7-----7-|
|-----12-----16----16------16-|-----11-----9----9-----9-|
|-13-----13-----16-----16-----|-11-----11----9-----9----|
|-----------------------------|-------------------------|
|-----------------------------|-------------------------|
|-----------------------------|-------------------------|


E|-----------------------|---------------------------|
B|----12----12-12-----12-|----11----9-9----9---------|
G|-13----13--------------|-11----11------------------|
D|-----------------------|---------------------------|
A|-----------------------|---------------------------|
E|-----------------------|---------------------------|

Strophe
|| G#m | H | F# | E ||

Refrain
| E | G#m | F# | G#m |
| E | G#m | F# | nc |
|| G#m | H | F# | E ||

Musik Gruppe