Just for you

Printer Friendly, PDF & Email

Interpret

Easy Living

Akkorde

Strophe
     D                         D                         C#m/5+
E||--------------------------|-------------------------|----------------0--------|
B||---7-------------7--------|--7-------------7--------|----------5--------5-----|
G||*----------7--------7-----|----------7--------7-----|-------------------------|
D||*-------7--------------7--|-------7--------------7--|-------7--------------7--|
A||---5----------5-----------|--5----------5-----------|--4----------4-----------|
E||--------------------------|-------------------------|-------------------------|

  C#m/5+                   Hm7add11                  Hm7add11
--0-------------0--------|----------------0--------|----------------0--------|
----------5--------5-----|----------3--------3-----|----------3--------3-----|
-------------------------|-------2--------------2--|-------2--------------2--|
-------7--------------7--|-------------------------|-------------------------|
--4----------4-----------|--2----------2-----------|--2----------2-----------|
-------------------------|-------------------------|-------------------------|

  A6add9                   A6add9                    Gmaj7
-------------------------|-------------------------|-------------------------|
-------------------------|-------------------------|----------------3--------|
----------------4--------|----------------4--------|----------4--------4-----|
----------4--------4-----|----------4--------4-----|-------4--------------4--|
-------4--------------4--|-------4--------------4--|-------------------------|
--5----------5-----------|--5----------5-----------|--3----------3-----------|

 Gmaj7                     F#m7add11                 F#m7add11
-------------------------|-------------------------|-------------------------|
----------------3--------|----------------0--------|----------------0--------|
----------4--------4-----|----------2--------2-----|----------2--------2-----|
-------4--------------4--|-------2--------------2--|-------2--------------2--|
-------------------------|-------------------------|-------------------------|
--3----------3-----------|--2----------2-----------|--2----------2-----------|

 Emadd9                    Emadd9                    A7sus4
----------------0--------|----------------0--------|--------------5--------5--|
-------------------0-----|-------------------0-----|-----------------5--------|
----------0-----------0--|----------0-----------0--|--------7-----------7-----|
-------4-----------------|-------4-----------------|-----5--------------------|
-------------2-----------|-------------2-----------|--------------------------|
--0----------------------|--0----------------------|--5--------5--------------|
                          ----
 A7                       |  D (am Ende)
------------5------------||----------------------|
----------5--------------||--------7-------------|
--------6---------------*||------7---------------|
------5-----------------*||----7-----------------|
----7--------------------||--5-------------------|
--5----------------------||----------------------|

Refrain

  Hm7                       Hm7
--7-------------7--------|--7-------------7--------|
-------------------7-----|-------------------7-----|
----------7-----------7--|----------7-----------7--|
-------7-----------------|-------7-----------------|
-------------------------|-------------------------|
--7----------7-----------|--7----------7-----------|

  E9                        E9                        A13
----------------7--------|----------------7--------|----------------7--------|
--7----------------7-----|--7-------7--------------|-------------------7-----|
----------7-----------7--|-------7-----------------|----------6-----------6--|
-------6-----------------|-------------------------|-------5-----------------|
--7----------7-----------|--7----------7-----------|-------------------------|
-------------------------|-------------------7--6--|--5----------5-----------|

  A13                       Gmaj7add13               Gmaj7add13
--7-------------7--------|----------------0--------|--0-------------0--------|
-------------------7-----|-------------------3-----|-------------------3-----|
----------6-----------6--|----------4-----------4--|----------4-----------4--|
-------5-----------------|-------4-----------------|-------4-----------------|
-------------------------|-------------------------|-------------------------|
--5----------5-----------|--3----------3-----------|--3----------3-----------|

  F#m                       F#m                       Gmaj7add13
----------------2--------|--2-------------2--------|----------------0--------|
-------------------2-----|-------------------2-----|-------------------3-----|
----------2-----------2--|----------2-----------2--|----------4-----------4--|
-------4-----------------|-------4-----------------|-------4-----------------|
-------------4-----------|-------------4-----------|-------------------------|
--2----------------------|--2----------------------|--3----------3-----------|

  Gmaj7add13                E                         E
--0-------------0--------|----------------0--------|--0-------------0--------|
-------------------3-----|-------------------0-----|----------0--------0-----|
----------4-----------4--|----------1-----------1--|-------1--------------1--|
-------4-----------------|-------2-----------------|-------------------------|
-------------------------|-------------------------|-------------------------|
--3----------3-----------|--0----------0-----------|--0----------0-----------|

  A7sus4                      A7
--------------5--------5--|------------5-----------||
-----------------5--------|----------5-------------||
--------7-----------7-----|--------6---------------||
-----5--------------------|------5-----------------||
--------------------------|----7-------------------||
--5--------5--------------|--5---------------------||

 

Musik Gruppe