Lifesaver

Printer Friendly, PDF & Email

Interpret

Sunrise Avenue

Akkorde

Intro
| F# | A#m | H | F# |
| H | F# C# | F# | F# |

E|-----------|--------------------|--------------------|---------------|
H|--------11-|-----------------11-|-----------------11-|---------------|
G|-11--13----|----11~~11-11-13----|----11~~---11-13----|-11-13------11-|
D|-----------|-11-----------------|-11-----11----------|---------11----|
A|-----------|--------------------|--------------------|---------------|
E|-----------|--------------------|--------------------|---------------|


    F#                  D#m                 H                   F#
E||------------------||------------------||------------------||------------------||
H||-----7-------7----||-----7-------7----||-----7-------7----||-----7-------7----||
G||---6---6---6---6--||---6---6---6---6--||---6---6---6---6--||---6---6---6---6--|| 2x
D||------------------||-8-------8--------||-9-------9--------||------------------||
A||-9-------9--------||------------------||------------------||-9-------9--------||
E||------------------||------------------||------------------||------------------||

    F#                 F#      F#/F       D#m                D#m     C#7sus7
E||------------------|------------------|------------------|------------------|
H||-----7-------7----|-----7-------7----|-----7-------7----|-----7-------7----|
G||---6---6---6---6--|---6---6---6---6--|---8---8---8---8--|---8---8---6---6--|
D||------------------|------------------|------------------|------------------|
A||-9-------9--------|-9-------8--------|-6-------6--------|-6-------4--------|
E||------------------|------------------|------------------|------------------|

    H                  H                  C#7sus7            C#
E||------------------|------------------|------------------|-----|
H||-----4-------4----|-----4-------4----|-----7-------7----|--6--|
G||---4---4---4---4--|---4---4---4---4--|---6---6---6---6--|--6--|
D||------------------|------------------|------------------|--6--|
A||-2-------2--------|-2-------2--------|-4-------4--------|--4--|
E||------------------|------------------|------------------|-----|

Refrain 
| F# | A#m | H | F# |
| H | F# C# | H | H |
| F# | A#m | H | A#m |
| H | F# C# | H | H | -> H

Intro mit Solo
Strophe

Refrain
| F# | A#m | H | F# |
| H | F# C# | H | H |
| F# | A#m | H | A#m |
| H | F# C# | H | H | -> H
---
Bridge
| F# | A#m | H | F# |
| H | F# C# | F# | F# |
| F# | A#m | H | F# | 
| F# | G# | H | C# |

--------------------------------
Refrain
   F#   A#m  H    F#   H    F# C#    H    H
e|----|----|----|----|----|--------|----|----|
h|----|----|----|----|----|--------|----|----|
G|----|-3--|-4--|----|-4--|-----6--|-4--|-4--|
D|-4--|-3--|-4--|-4--|-4--|-4---6--|-4--|-4--|
A|-4--|-1--|-2--|-4--|-2--|-4---4--|-2--|-2--|
E|-2--|----|----|-2--|----|-2------|----|----|

 F#   A#m  H    A#m  H    F# C#    H    H
e|----|----|----|----|----|--------|----|----|
h|----|----|----|----|----|--------|----|----|
G|----|-3--|-4--|-3--|-4--|-----6--|-4--|-4--|
D|-4--|-3--|-4--|-3--|-4--|-4---6--|-4--|-4--|
A|-4--|-1--|-2--|-1--|-2--|-4---4--|-2--|-2--|
E|-2--|----|----|----|----|-2------|----|----|

Bridge
   F#   A#m  H    F#   H    F# C#    F#   F#   
e|----|----|----|----|----|--------|----|----|
h|----|----|----|----|----|--------|----|----|
G|----|-3--|-4--|----|-4--|-----6--|----|----|
D|-4--|-3--|-4--|-4--|-4--|-4---6--|-4--|-4--|
A|-4--|-1--|-2--|-4--|-2--|-4---4--|-4--|-4--|
E|-2--|----|----|-2--|----|-2------|-2--|-2--|

   F#   A#m  H    F#   F#   G#   H    C#   
e|----|----|----|----|----|----|----|----|
h|----|----|----|----|----|----|----|----|
G|----|-3--|-4--|----|----|----|-4--|-6--|
D|-4--|-3--|-4--|-4--|-4--|-6--|-4--|-6--|
A|-4--|-1--|-2--|-4--|-4--|-6--|-2--|-4--|
E|-2--|----|----|-2--|-2--|-4--|----|----|

Musik Gruppe