Lovecats - The Cure

Printer Friendly, PDF & Email

Akkorde

  Strophe                Refrain      Bridge 
  Am  G   F       G      C   Dm        Em  F
--5---3---5-(1)---3---|--0---5-(1)--|--0---5---
--3---2---3-(0)---2---|--3---5-(0)--|--2---3---
--2---0---3-(3)---0---|--2---3-(0)--|--2---3---
--2---0---2-(2)---0---|--0---2-(2)--|--0---2---
 

Chorus - Mandoline
E|---------0-1-0---3-1-0--------(0)---|
A|-0-2-3-5-------3-------3-5-3-5-7----|
D|------------------------------------|
G|------------------------------------|
 
E|---------0-1-0---3-1-0---------------|
A|-0-2-3-5-------3-------3-5-3-2----0--|
D|-------------------------------5-(7)-|
G|-------------------------------------|
 
--------------------------------------------
 

Chorus - Gitarre
e|------------------------------------------|
B|------------------------------------------|
G|--------7-9-10-9----12-10-9-------------9-|
D|-7-9-10----------10---------10-12-10-12---|
A|------------------------------------------|
E|------------------------------------------|
 
e|---------------------------------------------|
B|---------------------------------------------|
G|--------7-9-10-9----12-10-9------------------|
D|-7-9-10----------10---------10-12-10-9-------|
A|---------------------------------------10-12-|

Musik Gruppe