New America

Printer Friendly, PDF & Email

Interpret

Bad Religion

Akkorde

Guitar Synth Intro auf F

Intro
|| F (D#) | B (D#) | F (D#) | B D# ||

INTRO RIFF

e|--------------------------------------------------|
B|---10-10-10-10-11-10-11----11-11-11-11-13-11-13---|
G|---10-10-10-10-10-10-10----10-10-10-10-10-10-10---|
D|--------------------------------------------------|
A|--------------------------------------------------|
E|--------------------------------------------------|

Verse
Guitar 1
|| F | C ||

Guitar 2

      B    F        B    F       D   F   C/G
E|----1-------------1--------------------0-0-0---|
H|----3----1---1----3----1---1-------1---1-1-1---|
G|----3----2---2----3----2---2---0---2---0-0-0---|
D|----3----3---3----3----3---3---0---3---2-2-2---|
A|----1----3---3----1----3---3---x---3---3-3-3---|
E|---------------------------------------3-3-3---|

Verse Part 2
Stop nach jedem Akkord
| B | F | C | C |

Chorus
| B | F | C | C | 4x

Solo (über Verse)

e|------------------------------------------------------------------------|
B|---11--10-10--10-10-11--11-11-10--10--------13:---11--10-10-8--10-11-10-|
G|---10:::::::::::::::::::::::::::----10--9-12------10---------10---------|
D|--------------------------------------10--------------------------------|
A|------------------------------------------------------------------------|
E|------------------------------------------------------------------------|

e|----12-----13-----15-----13-----12~~~-----------------------------------|
B|-13-----13-----13-----13-----13-----------------------------------------|
G|------------------------------------------------------------------------|
D|------------------------------------------------------------------------|
A|------------------------------------------------------------------------|
E|------------------------------------------------------------------------|

Musik Gruppe