Pet Sematary

Printer Friendly, PDF & Email

Interpret

Ramones

Akkorde

    Dm     Am    F
E |---------------------|
H |---3-------1-----1---|
G |---------0-----2-----|
D |-0---0-2-----3-----3-|
A |---------------------|
E |---------------------|

Pre Chorus
| C | D | C | D | B | C |

Refrain
| D | F | C | B C |
| D | F | B | C |

Solo
E |-------------------------------------|
H |-------------------------------------|
G |-------------------------------------|
D |-------------------------------7-5-3-|
A |1--5--5-7-8-1--1-1-1--3-3-3--3-------|
E |-------------------------------------|

 

Musik Gruppe