Soul Man

Akkorde


E|---------------------------|-------------------------|--------7----7--------|--------9----------11----|
B|--------9----9-------------|-9----7--------7----7----|----------------------|-------------------------|
G|---------------------------|-------------------------|-4--7-----------------|-7--9--------9--11-------|
D|-7--9------------------9---|-----------9-------------|----------------------|-------------------------|
A|---------------------------|-------------------------|----------------------|-------------------------|
E|---------------------------|-------------------------|----------------------|-------------------------|
 
       E                 D   A
E|-----7-------7--7--7---5---5----|
B|-----9-------9--9--9---7---5----|
G|-----9-------9--9--9---7---6----|  Repeat
D|-----9-------9--9--9---7---7----|
A|-----7-------7--7--7---5---7----|
E|--------------------------------|

| C | G | A | H | C |

       F                 B
E|-----1-------1--1--1---6---6----|
B|-----1-------1--1--1---8---6----|
G|-----2-------2--2--2---8---7----|  Repeat
D|-----3-------3--3--3---8---8----|
A|-----3-------3--3--3---6---8----|
E|--------------------------------|

 

 

Musik Gruppe