For you - Manfred Mann

Printer Friendly, PDF & Email

Akkorde

Guitar 1 (Keyboard Intro)
E|-------------------------------|-------------------------------|
B|-6---6---6---8---8---5---5---6-|-5---5---5---5-----------5---5-|
G|-7---7---7---7---7---7---7---7-|-5---5---5---5---7---7---7---7-|
D|-------------------------------|-------------------------------|

Guitar 2
|| Dm | C B ||

Outro

A|-------------0---1---0---3---0---|-3------|
E|-3---1---3-----------------------|-1------|

Strophe
|| F | Am | B C | Dm |
| Gm | Dm | B Gm | C ||
|| B C | F ||
3x
Guitar Shuffle
|| C ||

Refrain
Guitar 1
Keyboard Intro
Guitar 2
|| Dm | C B ||

Outro 2
A|----------0--1--0--1--3--|-5--3--0--5--0--|-0--1--3---3-|
E|-3--1--3-----------------|----------------|-----------1-|

Outro 3 (Refrain vor Solo)
D|---------------------------|----------------|-----------3-|
A|------------0--1--0--1--3--|-5--3--0--5--0--|-0--1--3---1-|
E|-3--1--3-------------------|----------------|-----------0-|

| B | B |  -  || B | C ||

E|----|--------------------|----------------------------|
B|----|-11----11-10-11-10--|-------------------------10-|
G|----|--------------------|-12-------------9--10-12----|
D|-10-|--------------------|----10----10-12-------------|
A|----|--------------------|----------------------------|
E|----|--------------------|----------------------------|

E|-----------------------|-------------------------|
B|-13----13--11--10--11--|-10-11-10----------------|
G|-----------------------|----------12-------------|
D|-----------------------|--------------------10---|
A|-----------------------|-------------------------|
E|-----------------------|-------------------------|

E|--------------------|----------------------------|
B|-11----11-10-11-10--|-------------------------10-|
G|--------------------|-12-------------9--10-12----|
D|--------------------|----10----10-12-------------|
A|--------------------|----------------------------|
E|--------------------|----------------------------|

E|--------------12---13--|-15/(17)--15-|
B|-13/(15)-15------------|-------------|
G|-----------------------|-------------|
D|-----------------------|-------------|
A|-----------------------|-------------|
E|-----------------------|-------------|

|| B B     F F |       G# G# ||
|| 1 +     4  +    |   3  4  ||

Musik Gruppe